Scrigroup - Documente si articole

     

HomeDocumenteUploadResurseAlte limbi doc
AnimaleArta culturaDivertismentFilmJurnalismMuzicaPescuit
PicturaVersuri


Ce este o tabulatura?

Muzica



+ Font mai mare | - Font mai mic



Ce este o tabulatura?

Notatia pe baza de tabulaturi este o notatie muzicala simplificata pentru chitara. In acest tip de notatie, fiecarei corzi ii corespunde o linie de tabulatura (E=mi, B=si, G=sol, D=re, A=la, E=mi).

Exemplu:

E||-------||
B||-------||
G||-------||
D||-------||
A||-------||
E||-------||

Cea mai de sus linie coincide cu coarda cea mai subtire. Fiecare nota de pe chitara corespunde unei cifre care indica pozitia pe care trebuie apasata coarda. '0' inseamna ciupirea libera a corzii.



E||--0----||
B||-------||
G||-------||
D||-------||
A||-------||
E||-------||

In exemplul de mai sus, este reprezentata coarda de jos libera (nota mi). Numarul indicat de cifra este pozitia pe care trebuie apasata coarda pe griful chitarei.

E||--1----||
B||-------||
G||-------||
D||-------||
A||-------||
E||-------||

In exemplul de mai sus, este reprezentata coarda de jos apasata pe pozitia I (nota fa).

Cifrele care stau pe aceeasi pozitie verticala in tabulatura reprezinta note care trebuie cantate concomitent. In exemplul de mai jos, este reprezentat acordul Am (la minor). Observati ca toate notele sunt una peste alta, ceea ce inseamna ca trebuie cantate concomitent.

E||--0----||
B||--1----||
G||--2----||
D||--2----||
A||--0----||
E||-------||

Tabulatura se citeste si se interpreteaza de la stanga la dreapta, asemanator oricarui text.

E||----- ----- ------------0----||
B||----- ----- -------1---------||
G||------------2----- ----- ----||
D||-------2----- ----- ---------||
A||--0----- ----- ----- ----- ----||
E||----- ----- ----- ----- -------||

Aceeasi ca si mai sus, in ciupitura


E||----- ----- ------------|--0----- ----- ---------||
B||------------1---------|------------1---------||
G||-------2---------2----|-------2---------2----||
D||----- ----- ------------|----- ----- ------------||
A||--0----- ----- ---------|----- ----- ------------||

E||----- ----- ------------|----- ----- ------------||

Notatia de tabulatura

L - nota legata (link note). De regula, acest simbol sta dupa alta nota, ca sa-i prelungeasca lungimea.

Exempu:

E||--2----L----||
B||--3----L----||
G||--2----L----||
D||--0----L----||
A||------------||
E||------------||

x - nota moarta (dead note). Coarda marcata cu x fie nu se atinge, fie semnifica oprirea vibratiei corzilor cu podul mainii drepte.

Exemplu:


E||--2----L----||
B||--3----L----||
G||--2----L----||
D||--0----L----||
A||--x---------||
E||--x---------||

h - hammer on

Efectul de hammer on presupune emiterea a doua note cu o singura ciupitura a corzii. A doua nota rezulta din prelungirea primei cu ajutorul mainii stangi.

Exemplu:

E||----- ----- -------------|------------0h----2----|--3----- ----- -------|
B||----- ----- -------------|-------0----- ----- -----|----- ----- ----------|
G||----- ----- -------------|--0----- ----- ----------|----- ----- ----------|
D||------------2h----4----|----- ----- -------------|----- ----- ----------|
A||-------2----- ----- -----|----- ----- -------------|----- ----- ----------|
E||--0----- ----- ----------|----- ----- -------------|----- ----- ----------|

p - pull off. Aceeasi ca si hammer on, dar in directie opusa:

E||-------------||
B||-------------||
G||-------------||
D||--2p----0----||
A||-------------||
E||-------------||

Iata si o combinatie de hammer on cu pull off si cu legato:

E||----- ----- ------------|----- ----- ----- ----- ----|----- ----- -----------|
B||----- ----- ------------|----- ----- ----- ----- ----|----- ----- -----------|
G||----- ----- ------------|----- ----- ----- ----- ----|----- ----- -----------|
D||-2h----3----2p----0---|--2h----3----2p----0----|--2h----3----2p----0-|
A||----- ----- ------------|----- ----- ----- ----- ----|----- ----- -----------|
E||----- ----- ------------|----- ----- ----- ----- ----|----- ----- -----------|

--0--------L--------||
--0--------L--------||
--1--------L--------||
--2--------L--------||
--2--------L--------||
--0--------L--------||

b - Intinderea corzii (bend). Efectul de bend se realizeaza prin apasarea stransa a corzii pe grif si intinderea ei pe verticala in sus sau jos.

Exemplu:

E||----- ----- ------5----- ----- -----|----- ----- ----- ----- ------||
B||-------------5-----8------------|----- ----- ----- ----- ------||
G||---------7b-----------7b--7--5--|--7-----5b--L-------------||
D||----- ----- --------- ----- --------|-----7----- ----- ----------||
A||----- ----- --------- ----- --------|----- ----- ----- ----- ------||
E||----- ----- --------- ----- --------|----- ----- ----- ----- ------||

s - slide. Este vorba de efectul de Glissando (alunecare pe coarda). Slide-ul se mai noteaza prin / daca este ascendent (de pe o pozitie joasa pe una mai inalta) si prin daca este descendent (de pe pozitie inalta pe pozitie mai joasa)

Exemplu:

E||-5--/7----8----0------||
B||----- ----- ------------||
G||----- ----- ------------||
D||----- ----- ------------||
A||----- ----- ------------||

E||----- ----- ------------||

Mana stanga, cateva acorduri de baza

Atat in tabulaturi, cat si in partituri, degetele mainii stangi se noteaza cu cifre de la 1 la 4, incepand cu aratatorul. Degetul mare nu se foloseste.

Orice partitura clasica contine explicata digitatia mainii stangi alaturi de notele de pe portativ. Tabulaturile insa nu includ decat rareori asemenea informatii. Iata, totusi, un exemplu (a se observa cifrele de jos):

E||----- ----- ----- ----- ------|----- ----- ----- ----- ----||
B||--------3-----------3-----|--------3----- ----- -----||
G||-----2-----------2--------|-----0----- ----- --------||
D||--0----- ----- -------------|----- ----- ----3----5----||
A||-----------3--L--------2--|--L--------0--1----3----||
E||----- ----- ----- ----- ------|----- ----- ----- ----- ----||
1 3 2 1 3 1 3 3 3
1 1

Ce este un acord?

In linii mari, un acord este o combinatie de trei note. Denumirea acordurilor corespunde cu denumirea notelor care stau la baza lor:

A - la
B - si
C - do
D - re
E - mi
F - fa
G - sol

Acordurile sunt de mai multe feluri:

Majore - se noteaza doar denumirea acordului cu litera majuscula (ex. A)
Minore - se noteaza acordul cu minuscula "m" alaturi (ex. Am)
Septacorduri - se noteaza acordul cu cifra "7" alaturi (ex. A7)

Acorduri majore:

E||--0--------||
B||--2--------||
G||--2--------||
D||--2--------||
A||--0--------||
E||-----------||

2

E||--0--------||
B||--1--------||
G||--0--------||
D||--2--------||
A||--3--------||
E||-----------||



E||--2--------||
B||--3--------||
G||--2--------||
D||--0--------||
A||-----------||
E||-----------||



E||--3--------||
B||--0--------||
G||--0--------||
D||--0--------||
A||--2--------||
E||--3--------||



Acorduri minore:

Am 

E||--0--------||
B||--1--------||
G||--2--------||
D||--2--------||
A||--0--------||
E||-----------||










Dm 

E||--1--------||
B||--3--------||
G||--2--------||
D||--0--------||
A||-----------||
E||-----------||



Em 

E||--0--------||
B||--0--------||
G||--0--------||
D||--2--------||
A||--2--------||
E||--0--------||

3

Septacorduri:

A7 

E||--0--------||
B||--2--------||
G||--0--------||
D||--2--------||
A||--0--------||
E||-----------||





E7 

E||--0--------||
B||--0--------||
G||--1--------||
D||--0--------||
A||--2--------||
E||--0--------||

Mana dreapta, exemple de batai si ciupituri

Exemple de batai pe chitara

Literele "j" sau "s" indica bataie in jos sau sus, respectiv. La inceput nu va vor iesi perfect, conditia este sa exersati cat mai mult si sa pastrati ritmul. Pentru simplitate, toate bataile sunt pe acordul Am

4/4 (I):

j j s s j s
E||--0----0--0----0--0--0--|--0----0--0----0--0--0--||
B||--1----1--1----1--1--1--|--1----1--1----1--1--1--||
G||--2----2--2----2--2--2--|--2----2--2----2--2--2--||
D||--2----2--2----2--2--2--|--2----2--2----2--2--2--||
A||--0----0--0----0--0--0--|--0----0--0----0--0--0--||
E||----- ----- ----- ----- ----|----- ----- ----- ----- ----||


j j s j s j j s j s j
E||------------0----|--0--0--0--0--0----|--0--0--0--0--0----|
B||------------1----|--1--1--1--1--1----|--1--1--1--1--1----|
G||------------2----|--2--2--2--2--2----|--2--2--2--2--2----|
D||------------2----|--2--2--2--2--2----|--2--2--2--2--2----|
A||------------0----|--0--0--0--0--0----|--0--0--0--0--0----|
E||----- ----- -------|----- ----- ---------|----- ----- ---------|

Ritm de waltz (3/4):

E||-------0----0----|------0----0----|------0----0----|-------0----0-|
B||-------1----1----|------1----1----|------1----1----|-------1----1-|
G||-------2----2----|------2----2----|------2----2----|-------2----2-|
D||----- ----- -------|----- ----- ------|----- ----- ------|----- ----- ----|
A||--0----- ----- ----|----- ----- ------|--0-------------|----- ----- ----|
E||----- ----- -------|--0-------------|----- ----- ------|--0-----------|

Ritm de polka (2/4):

Util pentru majoritatea melodiilor populare, dar nu numai. E indicat sa opriti corzile cu podul mainii pentru mai mult efect.


E||-------0----|-------0----|-------0----|-------0----||
B||-------1----|-------1----|-------1----|-------1----||
G||-------2----|-------2----|-------2----|-------2----||
D||------------|------------|------------|------------||
A||--0---------|------------|--0---------|------------||
E||------------|--0---------|------------|--0---------||

Ritm de tango (4/4):

E||-------0----|-----0--0-----0-----0----|-----0--0-----0-----0----||
B||-------1----|-----1--1-----1-----1----|-----1--1-----1-----1----||
G||-------2----|-----2--2-----2-----2----|-----2--2-----2-----2----||
D||-------2----|-----2--2-----2-----2----|-----2--2-----2-----2----||
A||-------0----|-----0--0-----0-----0----|-----0--0-----0-----0----||
E||------------|----- ----- ----- ----- -----|----- ----- ----- ----- -----||

Ciupituri

Ciupitura 4/4:


Em
E||----- ----- ----0-----------|----- ----- ----0-----------||
B||--------0-----------0-----|--------0-----------0-----||
G||-----0-----0-----0-----0--|-----0-----0-----0-----0--||
D||----- ----- ----- ----- ------|----- ----- ----- ----- ------||
A||----- ----- ----- ----- ------|--2----- ----- -------------||
E||--0----- ----- -------------|----- ----- ----- ----- ------||

Ciupitura 4/4 (II):

E||--0--------0--------0-----|--0--------0--------0-----|
B||-----1--------1--------1--|-----1--------1--------1--|
G||--------2--------2--------|--------2--------2--------|
D||----- ----- ----- ----- ------|----- ----- ----- ----- ------|
A||--0----- ----- -------0-----|--0----- ----- -------0-----|
E||----- ----- ----- ----- ------|----- ----- ----- ----- ------|


E E E E E E E E






Ciupitura 3/4:

E||-----------0--------|-----------0--------||
B||--------0-----0-----|--------0-----0-----||
G||-----0-----------0--|-----0-----------0--||
D||----- ----- ----------|----- ----- ----------||
A||----- ----- ----------|--2----- ----- -------||

E||--0----- ----- -------|----- ----- ----------||

Sfaturi la transpunerea melodiilor pe acorduri

1. De regula, toate melodiile incep si se termina cu acelasi acord, iata de ce, atunci cand faci o transpunere, in primul rand incearca sa gasesti acordul din care incepe melodia. Daca melodia e in minor, plimba-te pe griful chitarei cu acordul Em, apoi Fm , apoi F#m, Gm, G#m, etc, pana gasesti acordul care suna bine. Sau cu acordul Am, apoi A#m barat, Bm, Cm, C#m, D, etc. Daca e tonalitate majora, faci acelasi lucru pe acordurile majore, respectiv E sau A. Daca ti se pare prea complicat sa gasesti acordul, incearca sa afli cel putin prima nota. Pentru asta e indicat sa incerci sa reproduci pe chitara linia solistica a melodiei. Cand ai gasit nota cu care incepe (sau se termina) melodia, incearca toate acordurile care ar putea sa contina aceasta nota.

2. Odata ce ai reusit sa gasesti primul acord, foloseste-te de cercul cvintelor pentru a le afla pe celelalte. Se stie ca din tonalitatea Am in 90% din cazuri vor urma acordurile (nu neaparat in ordinea asta) Dm, E, G, C, mai rar B. Asta e cea mai comuna progresie de acorduri, si pe ea se bazeaza mai toata muzica. Daca stii pe de rost acordurile din aceasta progresie, e usor sa faci o transpunere in alta tonalitate cu ajutorul cercului cvintelor.

De exemplu, constati ca o melodie incepe din Em. Sa presupunem ca tu nu cunosti aceasta progresie de acorduri, dar o cunosti pe cea din Am, adica Am, Dm, E, G, C. Pentru ca in cercul cvintelor Dm este in sens opus ceasornicului fata de Am, verifica ce tonalitate sta in sens opus ceasornicului fata de Em. Vei constata ca Am este pentru Em ceea ce este Dm pentru Am. Cu alte cuvinte, cand canti melodia pe acordurile Am Dm E, sau pe acordurile Em Am B, e acelasi lucru. Diferenta e de inaltimea sunetului, dar raportul intre sunete e perfect acelasi.

3. De multe ori transpunerea dupa ureche se complica pentru ca notele se succed prea repede. E util sa cunoasteti ca exista un plug-in de Winamp care permite modificarea tempo-ului unei melodii. Plug-in-ul se numeste PaceMaker. Tot ce trebuie sa faci dupa ce ai instalat plug-in-ul e sa modifici tempo-ul de la 0% la o valoare negativa, de ex. -30%.

P.S. Dupa ce ai terminat lucrul cu PaceMaker, nu uita sa debifezi "Enable processing" sau sa muti controlul de tempo inapoi la 0, altfel Winampul va incetini melodiile din playlist in continuare



Politica de confidentialitate | Termeni si conditii de utilizare



DISTRIBUIE DOCUMENTUL

Comentarii


Vizualizari: 2078
Importanta: rank

Comenteaza documentul:

Te rugam sa te autentifici sau sa iti faci cont pentru a putea comenta

Creaza cont nou

Termeni si conditii de utilizare | Contact
© SCRIGROUP 2024 . All rights reserved